Tablature:Warship My Wreck

From MansonWiki, the Marilyn Manson encyclopedia
Jump to: navigation, search

Guitar[edit]

Guitar Tablature
Tabbed By Tomas Guitar


   Verse
   
   Gtr 1
   e||-0-0-0-0--0---0------0-0-0-0--0---0-----|
   B||-5-5-5-5--5b7-5b7----5-5-5-5--5b7-5b7---|
   G||------------------4-------------------4-|
   D||----------------------------------------|
   A||----------------------------------------|
   E||----------------------------------------|
   
   e||--------------------------|
   B||--------------------------|
   G||-2b3-2b3-2b3-2b3--2-2b3-0-|
   D||--------------------------|
   A||--------------------------|
   E||--------------------------| 3x
   
   Gtr 1
   e||---------------------------------------------------------------------------|
   B||---------------------------------------------------------------------------|
   G||---------------------------------------------------------------------------|
   D||-2-2-2-2-2-2-2-2-5-5-5-5-5-5-12-12-10-10-10-10-10-10-10-10-7-7-7-7-5-5-4-4-|
   A||-2-2-2-2-2-2-2-2-5-5-5-5-5-5-12-12-10-10-10-10-10-10-10-10-7-7-7-7-5-5-4-4-|
   E||-0-0-0-0-0-0-0-0-3-3-3-3-3-3-10-10-8--8--8--8--8--8--8--8--5-5-5-5-3-3-2-2-|
   
   Gtr 2
   e||----10----10----10-----12-12----|
   B||-12----12----12-----12-------12-|
   G||--------------------------------|
   D||--------------------------------|
   A||--------------------------------|
   E||--------------------------------|
   
   
   Chorus
   
   Gtr 1
   e||-------------------------------------------------------------------------|
   B||-------------------------------------------------------------------------|
   G||-------------------------------------------------------------------------|
   D||-14-14-14-14-14-14-14-14-12-12-12-12-12-12-12-12-10-10-10-10-10-10-10-10-|
   A||-14-14-14-14-14-14-14-14-12-12-12-12-12-12-12-12-10-10-10-10-10-10-10-10-|
   E||-12-12-12-12-12-12-12-12-10-10-10-10-10-10-10-10-8--8--8--8--8--8--8--8--| 
   
   Gtr 2
   e||-0-0-0-0--0---0------0-0-0-0--0---0-----|
   B||-5-5-5-5--5b7-5b7----5-5-5-5--5b7-5b7---|
   G||------------------4-------------------4-|
   D||----------------------------------------|
   A||----------------------------------------|
   E||----------------------------------------|
   
   e||--------------------------|
   B||--------------------------|
   G||-2b3-2b3-2b3-2b3--2-2b3-0-|
   D||--------------------------|
   A||--------------------------|
   E||--------------------------| 
   
   e||-0-0-0-0--0---0------0-0-0-0--0---0-----|
   B||-5-5-5-5--5b7-5b7----5-5-5-5--5b7-5b7---|
   G||------------------4-------------------4-|
   D||----------------------------------------|
   A||----------------------------------------|
   E||----------------------------------------|
   
   e||--------------------------|
   B||--------------------------|
   G||-2b3-2b3-2b3-2b3--2-2b3-0-|
   D||--------------------------|
   A||--------------------------|
   E||--------------------------| 
   
   e||-0-0-0-0--0---0------0-0-0-0--0---0-----|
   B||-5-5-5-5--5b7-5b7----5-5-5-5--5b7-5b7---|
   G||------------------4-------------------4-|
   D||----------------------------------------|
   A||----------------------------------------|
   E||----------------------------------------|
   
   e||-0-0-0-0--0---0------0-0-0-0--0---0-----|
   B||-5-5-5-5--5b7-5b7----5-5-5-5--5b7-5b7---|
   G||------------------4-------------------4-|
   D||----------------------------------------|
   A||----------------------------------------|
   E||----------------------------------------|
   
   e||-10----10----10----10-----12-12----|
   B||----12----12----12-----12-------12-|
   G||-----------------------------------|
   D||-----------------------------------|
   A||-----------------------------------|
   E||-----------------------------------|
   
   e||----10----10----10-----12-12----|
   B||-12----12----12-----12-------12-|
   G||--------------------------------|
   D||--------------------------------|
   A||--------------------------------|
   E||--------------------------------|
   
   e||----10----10----10-----12-12----|
   B||-12----12----12-----12-------12-|
   G||--------------------------------|
   D||--------------------------------|
   A||--------------------------------|
   E||--------------------------------|
   
   Solo
   Gtr 1
   e||-------------------------------------------------|
   B||-------------------------------------------------|
   G||-------------------------------------------------|
   D||-14-14-14-14-14-14-12-12-10-10-10-10-10-10-12-12-|
   A||-14-14-14-14-14-14-12-12-10-10-10-10-10-10-12-12-|
   E||-12-12-12-12-12-12-10-10-8--8--8--8--8--8--10-10-| 
   
   Gtr 2
   e||-----|
   B||-5---|
   G||-7b9-|
   D||-----|
   A||-----|
   E||-----|
   
   e||------|
   B||-7----|
   G||-9b11-|
   D||------|
   A||------|
   E||------|
   
   e||-------|
   B||-8-----|
   G||-10b12-|
   D||-------|
   A||-------|
   E||-------|
   
   e||-------|
   B||-10----|
   G||-12b14-|
   D||-------|
   A||-------|
   E||-------|
   
   e||-------|
   B||-12----|
   G||-14b16-|
   D||-------|
   A||-------|
   E||-------|
   
   e||-------|
   B||-15----|
   G||-17b19-|
   D||-------|
   A||-------|
   E||-------|
   
   e||-------|
   B||-17----|
   G||-19b21-|
   D||-------|
   A||-------|
   E||-------|
   
   
   e||-0--0--0--0--0--0--0--0--0--0--0--0--|
   B||-19-19-19-19-20-20-20-20-22-22-22-22-|
   G||-------------------------------------|
   D||-------------------------------------|
   A||-------------------------------------|
   E||-------------------------------------|
   
   e||-0--0--0--0--0--0--0--0--0--0--0--0--0-----0-----0-----|
   B||-19-19-19-19-20-20-20-20-22-22-22-22-22b24-22b24-24r22-|
   G||-------------------------------------------------------|
   D||-------------------------------------------------------|
   A||-------------------------------------------------------|
   E||-------------------------------------------------------|
   
   Improv on B string