Tablature:Third Day of a Seven Day Binge

From MansonWiki, the Marilyn Manson encyclopedia
Jump to: navigation, search

Guitar[edit]

Guitar Tablature
Tuning standard
Tabbed By ShutUpAndPlayTuts


   Riffs:
   
   E -0-0-0-0------0----0--0-----0--0----------------
   B -1-1-1-1--0---0----0--0-----0--0----------------
   G -0-0-0-0--0---0----0--0-----0--0----------------
   D -2-2-2-2--0---2-------2--------2----------------
   A -3-3-3-3------2-------2--------2----(x2)--------
   E ------------------------------------------------
   
   E -0-0-0-0------0----0--0-----0--0-----0--0---0----
   B -2-2-2-2--0---1----1--1-----0--1-----1--1---0----
   G -3-3-3-3--0---0----0--0-----0--2-----2--2---0----
   D -0-0-0-0--0---2-------2--------2--------2--------
   A --------------3-------3--------0--------0--------
   E -------------------------------------------------
   
   E ---0----0--0-----0--0----0--0-0-0-0--0--0-----
   B ---0----0--0-----0--0----0--1-1-1-1--0--0-----
   G ---0----0--0-----0--0----0--0-0-0-0--0--0-----
   D ---2-------2--------2-------2-2-2-2-----2-----
   A ---2-------2--------2-------3-3-3-3-----2-----
   E ---0-------0--------0-------------------0-----
   
   Chorus:
   E ---7-------7--7--7--------7-------7--7--7----------
   B ---10(b)12-12-12-12-------10(b)12-12-12-12---------
   G ---------------------------------------------------
   D ---------------------------------------------------
   A ---------------------------------------------------
   E ---------------------------------------------------