Tablature:The Mephistopheles of Los Angeles

From MansonWiki, the Marilyn Manson encyclopedia
Jump to: navigation, search

Guitar[edit]

Guitar Tablature
Tuning standard
Tabbed By Tomas Guitar


   Intro
   Gtr1
   e||-----------------------------------------------------------------|
   B||-----------------------------------------------------------------|
   G||-----------------------------------------------------------------|
   D||-----------------------------------------------------------------|
   A||------0-0-------------0-0-------------0-0-------------0-0--------|
   E||-5-5-5-5-5-5-5-5-3-3-3-3-3-3-3-3-1-1-1-1-1-1-1-1-5-5-5-5-5-5-5-5-|
   
   Gtr2
   e||-----------------------------------------------------------------|
   B||-10--------------12--------------5---5---5-----------------------|
   G||-------9---------------9---------7b9-7b9-7b9-7-5-----------------|
   D||----10--------------10---------------------------7---------------|
   A||-----------------------------------------------------------------|
   E||-----------------------------------------------------------------|
   
   
   
   Verse
   
   e||-------------------------------|
   B||---------------5---5-----5-----|
   G||---5-7---7-5-7-7b8-7b9---7b9/--|
   D||-7-----------------------------|
   A||-------------------------------|
   E||-------------------------------|
   
   e||-------------------------|
   B||-----------------5-----5-|
   G||---5-7b8---7-5-7-7b8r7-5-|
   D||-7-----------------------|
   A||-------------------------|
   E||-------------------------|
   
   
   Chorus
   Gtr1
   e||-------------------------------------------------------|
   B||-------------------------------------------------------|
   G||-------------------------------------------------------|
   D||-7--7--7-7-7---5--5--5-5-5---3--3--3-3---3-3---3-5-5---|
   A||-7--7--7-7-7---5--5--5-5-5---3--3--3-3---3-3---3-5-5---|
   E||-5--5--5-5-5-0-3--3--3-3-3-0-1--1--1-1-0-1-1-0-1-3-3-0-|
   
   Gtr2
   e||-------------------------------------------------------|
   B||----------5------------5-5-5---------------------------|
   G||----------5------------5-7-5---------------------------|
   D||-7--7-5-7-----7--7-5-7---------------------------------|
   A||-------------------------------------------------------|
   E||-------------------------------------------------------|
   
   Gtr1
   e||-------------------------------------------------------|
   B||-------------------------------------------------------|
   G||-------------------------------------------------------|
   D||-7--7--7-7-7---5--5--5-5-5---3--3--3-3---3-3----12--10-|
   A||-7--7--7-7-7---5--5--5-5-5---3--3--3-3---3-3----12--10-|
   E||-5--5--5-5-5-0-3--3--3-3-3-0-1--1--1-1-0-1-1-0--10--8--|
   
   Gtr2
   e||-------------------------------------------------------|
   B||----------5------------5-5-5---------------------------|
   G||----------5------------5-7-5---------------------------|
   D||-7--7-5-7-----7--7-5-7---------------------------------|
   A||-------------------------------------------------------|
   E||-------------------------------------------------------|
   
   Gtr1
   e||-------------------------------------------------------|
   B||-------------------------------------------------------|
   G||-------------------------------------------------------|
   D||-7--7--7-7-7---5--5--5-5-5---3--3--3-3---3-3---3-5-5---|
   A||-7--7--7-7-7---5--5--5-5-5---3--3--3-3---3-3---3-5-5---|
   E||-5--5--5-5-5-0-3--3--3-3-3-0-1--1--1-1-0-1-1-0-1-3-3-0-|
   
   Gtr2
   e||-------------------------------------------------------|
   B||----------5------------5-5-5---------------------------|
   G||----------5------------5-7-5---------------------------|
   D||-7--7-5-7-----7--7-5-7---------------------------------|
   A||-------------------------------------------------------|
   E||-------------------------------------------------------|
   
   Gtr1
   e||-------------------------------------------------------|
   B||-------------------------------------------------------|
   G||-------------------------------------------------------|
   D||-7--7--7-7-7---5--5--5-5-5---3--3--3-3---3-3----10-12--|
   A||-7--7--7-7-7---5--5--5-5-5---3--3--3-3---3-3----10-12--|
   E||-5--5--5-5-5-0-3--3--3-3-3-0-1--1--1-1-0-1-1-0--8--10--|
   
   e||-------------------------------------------------------|
   B||----------5------------5-5-5---------------------------|
   G||----------5------------5-7-5---------------------------|
   D||-7--7-5-7-----7--7-5-7---------------------------------|
   A||-------------------------------------------------------|
   E||-------------------------------------------------------|
   
   Gtr1
   e||---------------------------|
   B||---------------------------|
   G||---------------------------|
   D||---------------------------|
   A||-7--7--7-7-7-7--7-7-7-10-9-|
   E||-5--5--5-5-5-5--5-5-5-8--7-| 
   
   Gtr2
   e||---------------------------|
   B||---------------------------|
   G||-----------7b9-7------7--5-|
   D||-7---7---7-----------------|
   A||---------------------------|
   E||---------------------------|
   
   Gtr1
   e||---------------------------|
   B||---------------------------|
   G||---------------------------|
   D||---------------------------|
   A||-7--7--7-7-7-7--7-7-7-10-9-|
   E||-5--5--5-5-5-5--5-5-5-8--7-|
   
   Gtr2
   e||----------------------------|
   B||----------------------5-----|
   G||-----------7b9-7--5-7---5---|
   D||-7------------------------7-|
   A||----------------------------|
   E||----------------------------|