Tablature:The Gardener

From MansonWiki, the Marilyn Manson encyclopedia
Jump to: navigation, search

Guitar[edit]

Guitar Tablature
Tuning Drop D
Tabbed By unknown


   No Guitar in Intro or Verse
   
   Chorus
   e|-----------------------------|
   B|-----------------------------|
   G|-------------7-7-7-7-7-5-5-5-|
   D|--3-3-x-x-5--7-7-7-7-7-5-5-5-|
   A|--3-3-x-x-5--5-5-5-5-5-3-3-3-|
   D|--3-3-x-x-5------------------|
   
   Bridge
   e|-----------------------------|
   B|-----------------------------|
   G|-----------------------------|
   D|-----3-----2-----0-----0-----|
   A|-----------------------------|
   D|--3-----2-----0--------------|

Bass[edit]

Bass Tablature
Tuning Drop D
Tabbed By Finger Gish


   Intro and Verse:
   
   ---------------------------|---------------------------|
   ---------------------------|---------------------------|
   ---------------------------|---------------------------|
   --0--0--12--0--3--5--6--0--|--0--0--12--0--3--5--6--0--|
   
                                                                    X9
   
   ---------------------------|---------------------------|
   ---------------------------|---------------------------|
   ---------------------------|------------------5--3-----|
   --0--0--12--0--3--5--6--0--|--0--0--12--0--0--------0--|
   
   Play this one time only, once the initial bassline has been played the for the full 9 times!
   
   ---------------------------|---------------------------|
   ---------------------------|---------------------------|
   ---------------------------|---------------------------|
   --0--0--12--0--3--5--6--0--|--0--0--12--0--3--5--6--0--|
   
   Pre-Chorus:
   ---------------------------|---------------------------|
   ---------------------------|---------------------------|
   ---------------------------|---------------------------|
   --0--0--12--0--3--5--6--0--|--0--0--12--0--3--5--6--0--|
   
                                                                      X2
   ---------------------------|---------------------------|
   ---------------------------|---------------------------|
   ---------------------------|------------------5--3-----|
   --0--0--12--0--3--5--6--0--|--0--0--12--0--0--------0--|
   
   Chorus:
   |-----------------------------------------|
   |-----------------------------------------|
   |-------------3--4--x--5------x--3------x-|
   |--3----3--x------------------------------|
   
   |----------------------------------------------------|
   |----------------------------------------------------|
   |----------------3--4--x--5------5-------------------|
   |-3--------3--x-----------------------0--0--0--0--3--|
   
   |-----------------------------------------|
   |-----------------------------------------|
   |-------------3--4--x--5------x--3------x-|
   |--3----3--x------------------------------|
   
   |----------------------------------------------------|
   |----------------------------------------------------|
   |----------------3--4--x--5------5-------------------|
   |-3--------3--x-----------------------0--0--0--0--0--|
   
   Break & Verse 2:
   
   ---------------------------|---------------------------|
   ---------------------------|---------------------------|
   ---------------------------|---------------------------|
   --0--0--12--0--3--5--6--0--|--0--0--12--0--3--5--6--0--|
   
                                                                      X6
   
   ---------------------------|---------------------------|
   ---------------------------|---------------------------|
   ---------------------------|------------------5--3-----|
   --0--0--12--0--3--5--6--0--|--0--0--12--0--0--------0--|
   
   Chorus:
   |-----------------------------------------|
   |-----------------------------------------|
   |-------------3--4--x--5------x--3------x-|
   |--3----3--x------------------------------|
   
   |----------------------------------------------------|
   |----------------------------------------------------|
   |----------------3--4--x--5------5-------------------|
   |-3--------3--x-----------------------0--0--0--0--3--|
   
   |-----------------------------------------|
   |-----------------------------------------|
   |-------------3--4--x--5------x--3------x-|
   |--3----3--x------------------------------|
   
   |----------------------------------------------------|
   |----------------------------------------------------|
   |----------------3--4--x--5------5-------------------|
   |-3--------3--x-----------------------0--0--0--0--0--|
   
   Bridge:
   G||-------------------|-------------------|-------------------|
   D||-------------------|-------------------|-------------------|
   A||-------------------|-------------------|-------------------|
   D||--3----------------|--2----------------|--0----------------|
   G||-------------------|-------------------|-------------------|
   D||-------------------|-------------------|-------------------|
   A||-------------------|--3----------------|-------------------|
   D||--3----------------|-------------------|--0----------------|
   
   G||-------------------|-------------------|-------------------|
   D||-------------------|-------------------|-------------------|
   A||-------------------|-------------------|-------------------|
   D||--3----------------|--2----------------|--0----------------|
   
   G||-------------------|-------------------|-------------------|
   D||-------------------|-------------------|-------------------|
   A||-------------------|-------------------|-------------------|
   D||--3----------------|--5----------------|--0----------------|
   
   Chorus & Outro:
   |-----------------------------------------|
   |-----------------------------------------|
   |-------------3--4--x--5------x--3------x-|
   |--3----3--x------------------------------|
   
   |----------------------------------------------------|
   |----------------------------------------------------|
   |----------------3--4--x--5------5-------------------|
   |-3--------3--x-----------------------0--0--0--0--3--|
   
                                                                     X2
   
   |-----------------------------------------|
   |-----------------------------------------|
   |-------------3--4--x--5------x--3------x-|
   |--3----3--x------------------------------|
   
   |----------------------------------------------------|
   |----------------------------------------------------|
   |----------------3--4--x--5------5-------------------|
   |-3--------3--x-----------------------0--0--0--0--0--|
   
   Tablature Legend
   ----------------
   x - dead note