Tablature:The Flowers of Evil

From MansonWiki, the Marilyn Manson encyclopedia
Jump to: navigation, search

Guitar[edit]

Guitar Tablature
Tuning Drop D
Tabbed By unknown


   Verse
   e|---------------------|
   B|---------------------|
   G|---------------------|
   D|---------------------|
   A|---------------------|
   D|--0-0-12-0-0-12-0-0--|
   
   Bassline
   A|-----------------------|-----------------------|-----------------------|----------------------|
   D|--12--12--12-12-10-12--|------12--12-12-10-12--|------12--12-12-10-12--|------12-12-15-15-15--|
   
   Chorus
   e|--------------|
   B|--------------|
   G|--7--10-5--4--|
   D|--7--10-5--4--|
   A|--5--8--3--2--|
   D|--------------|
   Hit each note 8 times

Bass[edit]

Bass Tablature
Tabbed By unknown


   Verse:
   G-------------------------------------------------
   D-------------------------------------------------
   A-------------------------------------------------
   E---10----10-10-8-10------10----10-10-8-10--------
   
   G-------------------------------------------------
   D-------------------------------------------------
   A-------------------------------------------------
   E---10----10-10-8-10------10----10>13-13-13-------
   Chorus:
   G-------------------------------------------------
   D-------------------------------------------------
   A-------------------------------------------------
   E-10-10-10-10-10-10-10-10-13-13-13-13-13-13-13-13-
   
   G-------------------------------------------------
   D-------------------------------------------------
   A-------------------------------------------------
   E-----8-8-8-8-8-8-8-8-7-7-7-7-7-7-7-7-------------