Tablature:The Devil Beneath My Feet

From MansonWiki, the Marilyn Manson encyclopedia
Jump to: navigation, search

Guitar[edit]

Guitar Tablature
Tabbed By Tomas Guitar


   Intro/Verse
   
   Bass
   G||----------------------------------------------------|
   D||----------------------------------------------------|
   A||----------------------------------------------------|
   E||-10--10-10--10--10--10-10-10/5-8--8-8--3--3--3-3/13-|
   
   G||---------------------------------------------------|
   D||---------------------------------------------------|
   A||---------------------------------------------------|
   E||-10--10-10--10--10--10-10-10/5-8--8-8--3--3--3-3/8-|
   
   Chorus 1
   
   Bass (Fuzz)
   G||----------------------------------------------------------|
   D||----------------------------------------------------------|
   A||----------------------------------------------------------|
   E||-6--6-6--6--6--6-6/13-13/8-10--10-10--10--10--10-10/8-8/6-|
   
   Guitar (Overdub)
   e||-------------------------------------------------------------|
   B||-------------------------------------------------------------|
   G||-------------------------------------------------------------|
   D||-------------------------------------------------------------|
   A||-8--8-8--8--8--8-8/15-15/10-12--12-12--12--12--12-12/10-10/8-|
   E||-6--6-6--6--6--6-6/13-13/8--10--10-10--10--10--10-10/8--8/-6-|
   
   Guitar (Lead)
   e||-------------------------|
   B||---8---8-8-8-6b--8-------|
   G||-7---7-------------5-5-5-|
   D||-------------------------|
   A||-------------------------|
   E||-------------------------|
   
   Verse 2
   
   Bass
   G||----------------------------------------------------|
   D||----------------------------------------------------|
   A||----------------------------------------------------|
   E||-10--10-10--10--10--10-10-10/5-8--8-8--3--3--3-3/11-|
   
   G||---------------------------------------------------|
   D||---------------------------------------------------|
   A||---------------------------------------------------|
   E||-10--10-10--10--10--10-10-10/5-8--8-8--3--3--3-3/8-|
   
   Guitar
   e||----------------------------|
   B||-8b--8b-8b-8b-8b-6--8-------|
   G||----------------------5-5-5-|
   D||----------------------------|
   A||----------------------------|
   E||----------------------------|
   
   
   Chorus 2
   Bass (Fuzz)
   G||----------------------------------------------------------|
   D||----------------------------------------------------------|
   A||----------------------------------------------------------|
   E||-6--6-6--6--6--6-6/13-13/8-10--10-10--10--10--10-10/8-8/6-| 3x
   
   G||-----------------------------------------------|
   D||-----------------------------------------------|
   A||-----------------------------------------------|
   E||-1--1-1--3--3--3-3--3-3-6--6-6--8--8--8-8--8-8-|
   
   Guitar (Overdub)
   e||-------------------------------------------------------------|
   B||-------------------------------------------------------------|
   G||-------------------------------------------------------------|
   D||-------------------------------------------------------------|
   A||-8--8-8--8--8--8-8/15-15/10-12--12-12--12--12--12-12/10-10/8-|
   E||-6--6-6--6--6--6-6/13-13/8--10--10-10--10--10--10-10/8--8/-6-| 3x
   
   e||--------------------------------------------------|
   B||--------------------------------------------------|
   G||--------------------------------------------------|
   D||--------------------------------------------------|
   A||-3--3-3--5--5--5-5--5-5-8--8-8--10-10-10-10-10-10-|
   E||-1--1-1--3--3--3-3--3-3-6--6-6--8--8--8--8--8--8--|
   
   Guitar (Lead)
   e||-----------------------|
   B||-----------------------|
   G||-----------------------|
   D||-0--3p0-5-3p0--3p0-5-3-|
   A||-----------------------|
   E||-----------------------| 4x
   
   e||-------------------------|
   B||---8---8-8-8-6b--8-------|
   G||-7---7-------------5-5-5-|
   D||-------------------------|
   A||-------------------------| 
   E||-------------------------| 4x