Tablature:Slave Only Dreams to Be King

From MansonWiki, the Marilyn Manson encyclopedia
Jump to: navigation, search

Guitar[edit]

Guitar Tablature
Tabbed By Tomas Guitar


   Verse
   
   Guitar
   e||-------------|
   B||-------------|
   G||-------------|
   D||-x-x-x---x-x-|
   A||-x-x-x---x-x-|
   B||-x-x-x---x-x-| 6x
   
   Bass
   e||-------------|
   B||-------------|
   G||-------------|
   D||-------------|
   A||-------------|
   B||-------0-----| 6x
   
   Rest of the song
   
   Guitar
   e||-------------|
   B||-------------|
   G||-------------|
   D||-x-x-x---x-x-|
   A||-x-x-x---x-x-|
   B||-x-x-x-0-x-x-|
   
   Bass
   e||-------------|
   B||-------------|
   G||-------------|
   D||-------------|
   A||-------------|
   B||-------0-----|
   
   Guitar 2 (Distortion + Fuzz + Octaver + Pitch Shift + EQ)
   e||---------------------------------|
   B||---------------------------------|
   G||-7-7-11-11-10-10-9-9-9-9-7-7-7---|
   D||---------------------------------|
   A||---------------------------------|
   B||---------------------------------|
   
   e||---------------------------------|
   B||---------------------------------|
   G||-7-7-11-11-10-10-9-9-7-7-7-7-7/0-|
   D||---------------------------------|
   A||---------------------------------|
   B||---------------------------------|
   
   Chorus 1
   
   Guitar 1
   e||-------------------|
   B||-------------------|
   G||-------------------|
   D||-------------------|
   A||-------------------|
   B||-0--0--2-0--2-0--3-| 2x
   
   Chorus 2
   
   e||-----------------------------------------------------|
   B||-----------------------------------------------------|
   G||-----------------------------------------------------|
   D||-----------------------------------------------------|
   A||-----------------------------------------------------|
   B||-3-3-3-3-7-7-7-7-5-5-5-5-3-3-3-3-8--8--8--8--1-1-1-1-|
   
   e||-------------------|
   B||-------------------|
   G||-------------------|
   D||-------------------|
   A||-------------------|
   B||-0--0--2-0--2-0--3-| 2x
   
   e||-----------------------------|
   B||-----------------------------|
   G||-----------------------------|
   D||---/9----/7---/5--4--4-4-0---|
   A||-2-----0-------------------4-|
   B||------------8----------------|