Tablature:Pistol Whipped

From MansonWiki, the Marilyn Manson encyclopedia
Jump to: navigation, search

Guitar[edit]

Guitar Tablature
Tabbed By unknown


   Verse
   E|------------------------------------|
   B|------------------------------------|
   G|------------------------------------|
   D|------------------------------------|
   A|------------------------------------|
   E|--4-4--4--4--4----2-2-2-4--4--4--4b-|
   
   Chorus
   E|------------------------------------|
   B|------------------------------------|
   G|------------------------------------|
   D|--99999999-77777777-66--------------|
   A|--99999999-77777777-66--------------|
   E|--77777777-55555555-44--------------|
   
   Post-Chorus
   E|---------------------------------------|
   B|---------------------------------------|
   G|---------------------------------------|
   D|--6-6-6br--6br--6br--6br--6-6----4-4-4-|
   A|---------------------------------------|
   E|---------------------------------------|