Tablature:No Reflection

From MansonWiki, the Marilyn Manson encyclopedia
Jump to: navigation, search

Guitar[edit]

Guitar Tablature
Tabbed By unknown


   Main Guitar Riff
   E-------------------------------------------------
   B-------------------------------------------------
   G-------------------------------------------------
   D--22-22-22-22--22-22-22-22-222-55555555-44444444-
   A--22-22-22-22--22-22-22-22-222-55555555-44444444-
   E--00-00-00-00--00-00-00-00-000-33333333-22222222- ( 5 times )
   
   Pre-Chorus
   E--------------------------------------
   B--------------------------------------
   G--------------------------------------
   D--9999999999999999-77777777-444-55555-
   A--9999999999999999-77777777-444-55555-
   E--7777777777777777-55555555-222-33333-
   
   Chorus
   E-------------------------------------
   B-------------------------------------
   G-------------------------------------
   D--2222222222222222-55555555-44444444-
   A--2222222222222222-55555555-44444444-
   E--0000000000000000-33333333-22222222-
   
   Outro:
   E--16-16--15-15--14b-14b-14b-14b-14b-14b-14b--18-18-18-18-18-18-18-18--16-16--15-15-14b~14b~18b~14b~-
   B----------------------------------------------------------------------------------------------------
   G----------------------------------------------------------------------------------------------------
   D----------------------------------------------------------------------------------------------------
   A----------------------------------------------------------------------------------------------------
   E----------------------------------------------------------------------------------------------------

Bass[edit]

Bass Tablature
Tabbed By unknown


   Intro:
   G------------------------------------------------------
   D------------------------------------------------------
   A------------------------------------------------------
   E---0-0--0-0--0-0~--0-0----0-0---0-0---0-0~---0-0------
   
   G----------------------------------------------
   D----------------------------------------------
   A----------------------------------------------
   E---0-0-0-0--3-3-3-3-3-3-3-3-2-2-2-2-2-2-2-2---
   
   Chorus:
   G------------------------------------------------------
   D------------------------------------------------------
   A------------------------------------------------------
   E----7-7-7-7-7-7-7-7--5-5-5-5-5-5-5-5--2-2-2-2-3-3-3-3-
   
   Verse:
   G-----------------------------------------------------------------------
   D-----------------------------------------------------------------------
   A-----------------------------------------------------------------------
   E--0-0-0-0-0-0-0-0--0-0-0-0-0-0-0-0--3-3-3-3-3-3-3-3--2-2-2-2--3-3-5-5--