Tablature:Killing Strangers

From MansonWiki, the Marilyn Manson encyclopedia
Jump to: navigation, search

Guitar[edit]

Guitar Tablature
Tabbed By Tomas Guitar


   Intro
   
   e|------------------------------------------------
   B|------------------------------------------------
   G|------(10)----10-------------(0)----------------
   D|-------10--10-10--------10-12-12b14-12b14-12----
   A|-12-12-----------12--12----------------------12-
   E|------------------------------------------------
   
   e|------------------------------------------------
   B|------------------------------------------------
   G|------(10)----10-------------(0)----------------
   D|-------10--10-10--------10-12-12b14-12b14-12-10-
   A|-12-12-----------12--12-------------------------
   E|------------------------------------------------
   
   Chorus
   
   e|----------------------------------------
   B|---6----5----6----5----7-----5----5---3-
   G|-7----7----7----7----7---7-7----7---5---
   D|----------------------------------------
   A|----------------------------------------
   E|----------------------------------------
   
   e|----------------------------------------
   B|---6----5----6----5----7-----5----5-----
   G|-7----7----7----7----7---7-7----7-------
   D|----------------------------------------
   A|----------------------------------------
   E|----------------------------------------
   
   Pre-verse
   
   e|------------------     e|--------------------
   B|-5---5---5-(5)--5-     B|-5---5---5--5---5---
   G|-7b9-7b9-7--7---5-     G|-7b9-7b9-7--7b9-7-5-
   D|--------------7---     D|--------------------
   A|------------------     A|--------------------
   E|------------------ x 3 E|--------------------
   
   Solo
   
   e|---------------------     e|---------------------------------------
   B|-8-----8--10-10------     B|-13----13-----10----10-----8------6----
   G|-10b12-10-------7-10-     G|-15b17-15b17--12b14-12b14--10b12--8b10-
   D|---------------------     D|---------------------------------------
   A|---------------------     A|---------------------------------------
   E|--------------------- x 3 E|---------------------------------------