Tablature:Fundamentally Loathsome

From MansonWiki, the Marilyn Manson encyclopedia
Jump to: navigation, search

Guitar[edit]

Guitar tablature for Fundamentally Loathsome
Tabbed by unknown


   h: hammer on
   p: pull off
   /: slide down
   \: Slide up
   ~: vibrato
   ( ):Hold it and let note ring out
   b: full bend up
   
   This is  M.W. Gacy's part for  guitar. I assure you that If you play the 
   notes and chords in place of the piano, it is  100% accurate.
   
                                     Verse 1
   e-----------7--7----------7--7----------7--7--6--5--3-3-3-3----------|
   b---13--13--8--8--13--13--8--8--13--13--8--8--7--6--5-5-5-5--5-6-7-8-|
   g---14--14--------14--14--------14--14-------------------------------|
   d--------------------------------------------------------------------|
   A--------------------------------------------------------------------|
   E--------------------------------------------------------------------|
   
                                   Chorus
   e--7--7--7--7-----------10--10------------7--7------3-3-3-------------|
   b--8--8--8--8--5-4-3-2--12--12--12-11-10--8--8--11--5-5-5--6--5-6-7-8-|
   g-----------------------------------------------11---------7----------|
   d---------------------------------------------------------------------|
   A---------------------------------------------------------------------|
   E---------------------------------------------------------------------|
   
                                 Verse 2
   e----------7--7----------7--7----------7--7--6--5--3--3--------6--3-|
   b--13--13--8--8--13--13--8--8--13--13--8--8--7--6--5--5--5--6--7--5-|
   g--14--14--------14--14--------14--14--------------------6--7-------|
   d-------------------------------------------------------------------|
   A-------------------------------------------------------------------|
   E-------------------------------------------------------------------|
   
                                 Chorus
   e--7--7--7--7-----------10--10------------7--7------3-3-3-------------|
   b--8--8--8--8--5-4-3-2--12--12--12-11-10--8--8--11--5-5-5--6--5-6-7-8-|
   g-----------------------------------------------11---------7----------|
   d---------------------------------------------------------------------|
   A---------------------------------------------------------------------|
   E---------------------------------------------------------------------|
   
   now here comes the guitar solo, this is takes a bit more practice, just listen to the 
   and you'll get it.
   e--------------------------------------------------------------12b-(12)--|
   b-------------------------------------------------------------12---------|
   g------------------------------------------------12b--9scarshock (talk) 18:36, 22 November 2012 (CET)9~9~----------|
   d----7p5-------------------------7h9p7--11-12----------------------------|
   A----------7-5-------4/7scarshock (talk) 18:36, 22 November 2012 (CET)--7------------------------------------------|
   E--------------7-5-0-----------------------------------------------------|
   
   e----14b--12~~---12-14--12-10-12~-12/14-14-14-12-10b-12~~-10---------|
   b------------------------------------------------------------12b-----|
   g--------------------------------------------------------------------|
   d--------------------------------------------------------------------|
   A--------------------------------------------------------------------|
   E--------------------------------------------------------------------|
   
   e-----------------------------------------------------------------12/14-14---|
   b----8p7h8p7h8-10b-(10)-10p8-----------------9b---11b------------------------|
   g--------------------------918:36, 22 November 2012 (CET)~~918:36, 22 November 2012 (CET)~--11b---13b--9-11/12~~-9~~---------|
   d----------------------------------------------------------------------------|
   A----------------------------------------------------------------------------|
   E----------------------------------------------------------------------------|
   
   e----14-16-14-12-10~~12-10----------------------------------------------|
   b--------------------------12~~10h11p10h11p10---------------------------|
   g--------------------------------------------12-9-8/9--3/418:36, 22 November 2012 (CET)-0-1/2-4-|
   d-----------------------------------------------------------------------|
   A-----------------------------------------------------------------------|
   E-----------------------------------------------------------------------|
   
   e---------------------------------------------------------------------|
   b---------------------------------------------------------------------|
   g----7-9-11/12-12-11-12/14-12-1218:36, 22 November 2012 (CET)18:36, 22 November 2012 (CET)scarshock (talk) 18:36, 22 November 2012 (CET)------------------------|
   d---------------------------------------------------------------------|
   A---------------------------------------------------------------------|
   E---------------------------------------------------------------------|

Bass[edit]

Bass tablature for Fundamentally Loathsome
Tabbed by unknown


   Verse 1 
   G|-------------------------------------------------|
   D|-------------------------------------------------|   x2
   A|-------------------------------------------------|
   E|-5----5----5----5----4-3----3----3----0-3-4-5----|
   
   G|------------------------------------------------------------------------|
   D|------------------------------------------------------------------------|
   A|------------------------------------------------------------------------|
   E|-5----5----5----5----4-3----3-----3-3----3-2-2----2-1-1-0---0---0---12\-|
   
   Chorus 1 
   G|----------------------------------------------------------|
   D|----------------------------------------------------------|  x2
   A|-------------------9-----------5---------------5--5\------|
   E|0-3---3----3--3/7----7--7---3-----2--2--0--0----------3---|
   
   Verse 2 
   G|-------------------------------------------------|
   D|-------------------------------------------------|   x2
   A|-------------------------------------------------|
   E|-5----5----5----5----4-3----3----3----0-3-4-5----|
   
   G|------------------------------------------------------------------------|
   D|------------------------------------------------------------------------|
   A|------------------------------------------------------------------------|
   E|-5----5----5----5----4-3----3-----3-3----3-2-2----2-1-1-0---0---0---12\-|
   
   Chorus
   G|----------------------------------------------------------|
   D|----------------------------------------------------------|  x2
   A|-------------------9-----------5---------------5--5\------|
   E|0-3---3----3--3/7----7--7---3-----2--2--0--0----------3---|
   
   Bridge 1 
   G|-------------------------------------------------|
   D|-------------------------------------------------|   x2
   A|-------------------------------------------------|
   E|-5----5----5----5----4-3----3----3----0-3-4-5----|
   
   G|------------------------------------------------------------------------|
   D|------------------------------------------------------------------------|
   A|------------------------------------------------------------------------|
   E|-5----5----5----5----4-3----3-----3-3----3-2-2----2-1-1-0---0---0---12\-|
   
   Bridge 2 
   G|-----------------------      |--------------------------------|
   D|----------------------- x1   |--------------------------------| x3
   A|-----------------------      |-10------9-------7-------2-3-2--|
   E|0-0-0-0-0-0-0-0-0-0-0-0      |----0-0-----0-0-----0-0---------|
   
   G|----------------------------------|
   D|----------------------------------|
   A|-10------9-------7-------7--5-----|
   E|----0-0-----0-0-----0-0--------7--|
   
   G|------------------------------------------------|
   D|------------------------------------------1-1-1-|
   A|-2-2-2-2-2-2------------3-3-3-3-3-3-2-2-2-------|
   E|-------------2-2-2-2-2-2------------------------|
   
   OUTRO 
   G|-------------------------|
   D|-------------------------| till end.
   A|--------------1--1--0----|
   E|--0--0--3--3-----------3-|

Keyboard[edit]

Keyboard tablature for Fundamentally Loathsome
Tabbed by Per "Pogo" Stenberg


   Verse 1              (Honky-Tonk)      
   A+C A+C G+B G+B                                            (MID)
   A+C A+C G+B G+B F#+Bb F+A E+G E+G E+G E F F# G             (MID)
   
   Chours Keyboard 1    (Honky-Tonk)
   G+B G+B G+B G+B E Eb D C# B+D B+D B Bb A G+B G+B           (MID)
   F#+Bb E+G E+G E+G D+F E F F# G                             (MID)
   
   Chours Keyboard 2    (Whistel)
   C  A  G                                                    (HIGH)
   
   Chours Keyboard 3    (Metallic Pad)
   B                                                          (HIGH)
   
   Chours Keyboard 4    (Tremelo)
   G                                                          (MID)
   
   Verse 2              (Honky-Tonk)
   The ending is a little different.
   A+C A+C G+B G+B                                            (MID)
   A+C A+C G+B G+B F#+Bb F+A E+G E+G E+G E+C# F+D F#+Eb G+E   (MID)
   
   Chours Keyboard 1    (Honky-Tonk)
   G+B G+B G+B G+B E Eb D C# B+D B+D B Bb A G+B G+B           (MID)
   F#+Bb E+G E+G E+G D+F E F F# G                             (MID)
   
   Chours Keyboard 2    (Whistel)
   C  A  G                                                    (HIGH)
   
   Chours Keyboard 3    (Tremelo)
   G                                                          (MID)
   
   During first half of the solo
   A+C A+C G+B G+B                                            (MID)
   A+C A+C G+B G+B F#+Bb F+A E+G E+G E+G E F F# G             (MID)
   
   This is goes on during the second half on the solo (2.45)
   (Honky-Tonk)
   A+C G+B                                                    (MID) 
   
   Then play this  (Honky-Tonk)
   A+C A+C G+B G+B                                            (MID)
   
   This is during "Shoot my self to love you..."
   (Whistel)
   C B                                                        (MID)

Drums[edit]

Drums tablature for Fundamentally Loathsome
Tabbed by unknown


   part 1
   
     >-----------------------4x------------------------<
   H |x-x-x-x-x-x-x-x-x-x-x-x-|x-x-x-x-x-x-x-x-x-x-x-x-|   
   S |------o-----------o-----|------o-----------o-----|
   B |o---------o-o-----------|o---------o-o-----------|
     |1 e + 2 e + 3 e + 4 e + |1 e + 2 e + 3 e + 4 e + |
   
   C |X-----------------------|------------------------|    
   H |--x-x-x-x-x-x-x-x-x-x-x-|x-x-x-x-x-x-x-x-x-x-x-x-|     
   S |------o-----------o-----|------o-----------o-----|
   B |o---------o-o-----------|o---------o-o-----------|
     |1 e + 2 e + 3 e + 4 e + |1 e + 2 e + 3 e + 4 e + |
   
   H |x-x-x-x-x-x-x-x-x-x-x-x-|x-x-x-x-x-x-x-x-x-x-x-x-|    
   S |------o-----------o-----|------o-----------o-----|
   B |o---------o-o-----------|o---------o-o-----------|
     |1 e + 2 e + 3 e + 4 e + |1 e + 2 e + 3 e + 4 e + |
   
   C |X-----------------------|------------------------|    
   H |--x-x-x-x-x-x-x-x-x-x-x-|x-x-x-x-x-x-x-x-x-x-x-x-|     
   S |------o-----------o-----|------o-----------o-----|
   B |o---------o-o-----------|o---------o-o-----------|
     |1 e + 2 e + 3 e + 4 e + |1 e + 2 e + 3 e + 4 e + |
   
   H |x-x-x-x-x-x-x-x-x-x-x-x-|x-x-x-x-x-x-x-x-x-x-x-X-|  
   S |------o-----------o-----|------o-----------o-----|
   B |o---------o-o-----------|o---------o-o-----------|
     |1 e + 2 e + 3 e + 4 e + |1 e + 2 e + 3 e + 4 e + | 
   
    for part 2 repeat part 1, last measure is different
   
   H |x-x-x-x-x-x-x-x-x-------|  
   S |------o-----------oo----|
   T |--------------------o-o-|
   B |o---------o-o-----------|
     |1 e + 2 e + 3 e + 4 e + | 
   
     part 3
   
   C |X-----------------------|X-----------------------|    
   R |--x-x-x-x-x-x-x-x-x-x-x-|--x-x-x-x-x-x-x-x-x-x-x-|     
   S |------o-----------o-----|------o-----------o-----|
   B |o---------o-o-----------|o---------o-o-----------|
     |1 e + 2 e + 3 e + 4 e + |1 e + 2 e + 3 e + 4 e + |
   
   C |X-----------------------|X-----------------------|    
   R |--x-x-x-x-x-x-x-x-x-x-x-|--x-x-x-x-x-x-----------|     
   S |------o-----------o-----|------o----------ooo----|
   T |------------------------|--------------o-o---o-o-|
   B |o---------o-o-----------|o---------o-o-----------|
     |1 e + 2 e + 3 e + 4 e + |1 e + 2 e + 3 e + 4 e + |
   
   C |X-----------------------|X-----------------------|    
   R |--x-x-x-x-x-x-x-x-x-x-x-|--x-x-x-x-x-x-x-x-x-x-x-|     
   S |------o-----------o-----|------o-----------o-----|
   B |o---------o-o-----------|o---------o-o-----------|
     |1 e + 2 e + 3 e + 4 e + |1 e + 2 e + 3 e + 4 e + |
   
                                getting louder
                               ------------------------> 
   C |X-----------------------|------------------------|    
   R |--x-x-x-x-x-x-x-x-------|------------------------|     
   S |------o-----------oo----|o-o-o-o-o-o-o-o-o-oooooo|
   T |--------------------o-o-|o-g-g-g-g-g-o-o-o-------|
   B |o---------o-o-----------|o-----------o-o-o-o-----|
     |1 e + 2 e + 3 e + 4 e + |1 e + 2 e + 3 e + 4 e + |
   
     part 4
   
   C |X-----------------------|X-----------------------|    
   R |--x-x-x-x-x-x-x-x-x-x-x-|--x-x-x-x-x-x-x-x-x-x-x-|     
   S |------o-----------o-----|------o-----------o-----|
   B |o---------o-o-----------|o---------o-o-----------|
     |1 e + 2 e + 3 e + 4 e + |1 e + 2 e + 3 e + 4 e + |
   
   C |X-----------------------|X-----------------------|    
   R |--x-x-x-x-x-x-x-x-x-x-x-|--x-x-x-x-x-x-x-x-x-----|     
   S |------o-----------o-----|------o-----o-------oo--|
   T |---------------g--------|------------------o---oo|
   B |o---------o-o-----------|o----------o-o--oo------|
     |1 e + 2 e + 3 e + 4 e + |1 e + 2 e + 3 e + 4 e + |
   
   C |X-----------------------|X-----------------------|    
   R |--x-x-x-x-x-x-x-x-x-x-x-|--x-x-x-x-x-x-x-x-------|     
   S |------o-----------o-----|------o-----------oo--o-|
   T |------------------------|--------------------o---|
   B |o---------o-o-----------|o---------o-o----o------|
     |1 e + 2 e + 3 e + 4 e + |1 e + 2 e + 3 e + 4 e + |
   
   C |X-----------------------|X-----------------------|    
   R |--x-x-x-x-x-x-x-x-x-x-x-|--x-x-x-x-x-x-x-x-------|     
   S |------o-----------o-----|------o-----------oo-oo-|
   T |------------------------|--------------------o--o|
   B |o---------o-o-----------|o---------o-o-----------|
     |1 e + 2 e + 3 e + 4 e + |1 e + 2 e + 3 e + 4 e + |
   
   C |X-----------------------|X-----------------------|    
   R |--x-x-x-x-x-x-x-x-x-x-x-|--x-x-x-x-x-x-x-x-------|     
   S |------o-----------o-----|------o-----------oooooo|
   B |o---------o-o-----------|o---------o-o----o------|
     |1 e + 2 e + 3 e + 4 e + |1 e + 2 e + 3 e + 4 e + |
   
   C |X-----------------------|X-----------------------|    
   R |--x-x-x-x-x-x-x-x-x-x-x-|--x-x-x-x-x-x-----------|     
   S |------o-----------o-----|------o-----------oo----|
   F |------------------------|--------------oo----o-o-|
   T |------------------------|----------------o------o|
   B |o---------o-o-----------|o---------o-o-----------|
     |1 e + 2 e + 3 e + 4 e + |1 e + 2 e + 3 e + 4 e + |
   
   C |X-----------------------|X-----------------------|    
   R |--x-x-x-x-x-x-x-x-x-x-x-|--x-x-x-x-x-x-x-x-------|     
   S |------o-----------o-----|------o-----o-------oo--|
   T |------------------------|------------------o---oo|
   B |o---------o-o-----------|o----------o-o--oo------|
     |1 e + 2 e + 3 e + 4 e + |1 e + 2 e + 3 e + 4 e + |
   
   C |X-----------------------|X-----------X-----------|    
   R |--x-x-x-x-x-x-x-x-x-x-x-|--x-x-x-x-x---x-x-x-----|     
   S |------o-----------o-----|------o-----o-------oooo|
   T |------------------------|------------------o-----|
   B |o---------o-o-----------|o----------o-o--oo------|
     |1 e + 2 e + 3 e + 4 e + |1 e + 2 e + 3 e + 4 e + |
   
   C |X-----------------------|X-----------------------|    
   R |--x-x-x-x-x-x-x-x-x-x-x-|--x-x-x-x-x-x-----------|     
   S |------o-----------o-----|------o-------ooo-ooo---|
   T |------------------------|-----------------o---oOO|
   B |o---------o-o-----------|o---------o-o-----------|
     |1 e + 2 e + 3 e + 4 e + |1 e + 2 e + 3 e + 4 e + |
   
   C |X-----------------------|X-----------X-----------|    
   R |--x-x-x-x-x-x-x-x-x-x-x-|--x-x-x-x-x---x-x-------|     
   S |------o-----------o-----|------o-----o-o---------|
   T |------------------------|----------------o-oooooO|
   B |o---------o-o-----------|o----------o-o----------|
     |1 e + 2 e + 3 e + 4 e + |1 e + 2 e + 3 e + 4 e + |
   
   C |X-----------------------|X-----------X-----X-----|    
   R |--x-x-x-x-x-x-x-x-x-x-x-|--x-x-x-x-x-------------|     
   S |------o-----------o-----|------o-------oooo--oooo|
   B |o---------o-o-----------|o---------o-o-----o-----|
     |1 e + 2 e + 3 e + 4 e + |1 e + 2 e + 3 e + 4 e + |
   
   C |X-----------------------|X-----------------------|    
   R |--x-x-x-x-x-x-x-x-x-x-x-|--x-x-x-x-x-x-----------|     
   S |------o-----------o-----|------o-----------o----o|
   T |------------------------|--------------oooo-gooo-|
   B |o---------o-o-----------|o---------o-o-----------|
     |1 e + 2 e + 3 e + 4 e + |1 e + 2 e + 3 e + 4 e + |
     
     >---------------------fade-out--------------------<
   C |X-----------------------|X-----------------------|    
   R |--x-x-x-x-x-x-x-x-x-x-x-|--x-x-x-x-x-x-x-x-------|     
   S |------o-----------o-----|------o-----o------oo---|
   T |------------------------|----------------o-o--ooo|
   B |o---------o-o-----------|o----o-o---o-o----------|
     |1 e + 2 e + 3 e + 4 e + |1 e + 2 e + 3 e + 4 e + |