Tablature:Fall of the House of Death

From MansonWiki, the Marilyn Manson encyclopedia
Jump to: navigation, search

Guitar[edit]

Guitar Tablature
Tabbed By Tomas Guitar


   Intro
   
   e||------------------------------------------|
   B||----3-------------------3-----------------|
   G||----4--4-4-4--4-2-2-----4--4-4-4--4-7-7-7-|
   D||-4--4--4-4-4--4-2-2--4--4--4-4-4--4-7-7-7-|
   A||-2--2--2-0-2--2-0-0--2--2--2-0-2--2-5-5-5-|
   E||------------------------------------------|
   
   e||-----------------------------------------|
   B||----3------------------------------3-----|
   G||----4--4-4-4--4-2-2--4--7-7-7-7-4--4-xxx-|
   D||-4--4--4-4-4--4-2-2--4--7-7-7-7-4----xxx-|
   A||-2--2--2-0-2--2-0-0--2--5-5-5-7-2----xxx-|
   E||-----------------------------------------|
   
   
   Verse
   
   e||------------------------------------------|
   B||----3-------------------3-----------------|
   G||----4--4-4-4--4-2-2-----4--4-4-4--4-7-7-7-|
   D||-4--4--4-4-4--4-2-2--4--4--4-4-4--4-7-7-7-|
   A||-2--2--2-0-2--2-0-0--2--2--2-0-2--2-5-5-5-|
   E||------------------------------------------|
   
   e||---------------------------------------------|
   B||----3----------------------------------------|
   G||----4--4-4-4--4-2-2--------0-----------------|
   D||-4--4--4-4-4--4-2-2----------2-------5-----7-|
   A||-2--2--2-0-2--2-0-0------------2---5-----7---|
   E||---------------------0---0-------3-----5-----|
   
   e||------------------------------------------|
   B||----3-------------------------------3-----|
   G||----4--4-4-4--4-2-2--4-4-7-7-7-7-4--4-xxx-|
   D||-4--4--4-4-4--4-2-2--4-4-7-7-7-7-4--4-xxx-|
   A||-2--2--2-0-2--2-0-0--2-2-5-5-5-7-2--2-xxx-|
   E||------------------------------------------|
   
   Chorus
   
   e||------0---0-0-------2-2--2-0-|
   B||-3--3-3---3-3--3--3-3-3--3-3-|
   G||-4--4-4---4-4--4--4-4-4--4-4-|
   D||-4--4-4---4-4--4--4-4-4--4-4-|
   A||-2--2-2---2-2--0--0-0-0--0-0-|
   E||-----------------------------|
   
   e||---------------------------|
   B||---------------------------|
   G||---------0-----------------|
   D||---2---2---2-------5-----7-|
   A||---2---2-----2---5-----7---|
   E||---0---0-------3-----5-----|
   
   e||------2---2-2--0--0-2-2-2-0-|
   B||-3--3-3---3-3--3--3-3-3-3-3-|
   G||-4--4-4---4-4--4--4-4-4-4-4-|
   D||-4--4-4---4-4--4--4-4-4-4-4-|
   A||-2--2-2---2-2--0--0-0-0-0-0-|
   E||----------------------------|
   
   
   e||---------------------------|
   B||---------------------------|
   G||---------------------------|
   D||-4--4-4--4-4-5--5-5--7-7-7-|
   A||-4--4-4--4-4-5--5-5--7-7-7-|
   E||-2--2-2--2-2-3--3-3--5-5-5-|
   
   e||-------------------------------------|
   B||----3------------------------------3-|
   G||----4--4-4-4--4-2-2--4--7-7-7-7-4--4-|
   D||-4--4--4-4-4--4-2-2--4--7-7-7-7-4--4-|
   A||-2--2--2-0-2--2-0-0--2--5-5-5-7-2--2-|
   E||-------------------------------------|
   
   
   Solo
   
   e||---2-2-2-2---2-2-2-2---2-2-2-2---2-2-2-2-|
   B||---3-3-3-3---3-3-3-3---3-3-3-3---3-3-3-3-|
   G||---2-2-2-2---2-2-2-2---2-2-2-2---2-2-2-2-|
   D||-0---------------------------------------|
   A||-----------4---------2---------0---------|
   E||-----------------------------------------|
   
   
   e||------------------------------------|
   B||------------------------------------|
   G||------------------------------------|
   D||-5--5-5-5-5--5--5--7--7-7-7-7--7--7-|
   A||-5--5-5-5-5--5--5--7--7-7-7-7--7--7-|
   E||-3--3-3-3-3--3--3--5--5-5-5-5--5--5-|
   
   
   
   Outro
   
   e||---------------------------------------------|
   B||---------------------------------------------|
   G||---------------------------------------------|
   D||------2----------2----------2----------2-----|
   A||--------2------2---2------2---2------2---2---|
   E||-0--------0-2--------2-3--------3-2--------2-|
   
   e||-----------------------------------------------|
   B||-----------------------------------------------|
   G||-------------------------------------------0---|
   D||------2----------2----------2----------2-4---2-|
   A||----2---2------2---2------2---2------2---------|
   E||-0--------0-2--------2-3--------3-2------------|
   
   Then play Em, Em/F#, Em/G, Em/F# till the end