Tablature:Deep Six

From MansonWiki, the Marilyn Manson encyclopedia
Jump to: navigation, search

Guitar[edit]

Guitar Tablature
Tuning standard
Tabbed By Tomas Guitar


   Intro
   
   e||------------------------|
   B||------------------------|
   G||------------------------|
   D||------------------------|
   A||----2---2------2----2---|
   E||-0----0---0-3----1----1-| 2x
   
   e||------------------------|
   B||------------------------|
   G||------------------------|
   D||------------------------|
   A||----2---2------2----2---|
   E||-0----0---0-3----1------| 2x
   
   Verse
   
   e||------------------------|
   B||------------------------|
   G||------------------------|
   D||------------------------|
   A||----2---2------2----2---|
   E||-0----0---0-3----1----1-|
   
   Chorus 1
   
   e||---------------------------|
   B||---------------------------|
   G||---------------------------|
   D||---------------------------|
   A||-2-2--2-2--2-3--2-2--2-3-2-|
   E||-0-0--0-0--0-1--0-0--0-1-0-|
   
   e||---------------------------|
   B||---------------------------|
   G||---------------------------|
   D||---------------------------|
   A||-2-2--2-2--2-5-5-5-3--3--3-|
   E||-0-0--0-0--0-3-3-3-1--1--1-|
   
   Chorus 2
   
   e||---------------------------|
   B||---------------------------|
   G||---------------------------|
   D||---------------------------|
   A||-2-2--2-2--2-3--2-2--2-3-2-|
   E||-0-0--0-0--0-1--0-0--0-1-0-|
   
   e||------------------------------|
   B||------------------------------|
   G||------------------------------|
   D||------------------------------|
   A||-2-2--2-2--2-5-5-5-12--12--12-|
   E||-0-0--0-0--0-3-3-3-10--10--10-|
   
   e||---------------------------------------------------------|
   B||---------------------------------------------------------|
   G||---------------------------------------------------------|
   D||---------------------------------------------------------|
   A||-9-9--9-9-9--7-7--7-7-7--12-12--12-12-12--5--5-5-5-7-7-7-|
   E||-7-7--7-7-7--5-5--5-5-5--10-10--10-10-10--3--3-3-3-5-5-5-|
   
   e||------------------------------------------------|
   B||------------------------------------------------|
   G||------------------------------------------------|
   D||------------------------------------------------|
   A||-9-9--9-9-9--7-7--7-7-7--5-5--5-5-5--5-5--5-5-5-|
   E||-7-7--7-7-7--5-5--5-5-5--3-3--3-3-3--3-3--3-3-3-|
   
   Chorus (Lead)
   
   e||--------------------------------------------------|
   B||----7--------7-----7----7-------------------------|
   G||----7-9-7----7-9-7-9b11-9b11r9-7-9-7----7---------|
   D||-9--------9---------------------------9---7-7-7-7-|
   A||--------------------------------------------------|
   E||--------------------------------------------------|
   
   e||-----------------------------------------------------|
   B||----7--------7-----7----7----7----7----7-------------|
   G||----7-9-7----7-9-7-9b11-9b11-9b11-9b11-9b11r9-7-9-7--|
   D||-9--------9------------------------------------------|
   A||-----------------------------------------------------|
   E||-----------------------------------------------------|