Tablature:Day 3

From MansonWiki, the Marilyn Manson encyclopedia
Jump to: navigation, search

Guitar[edit]

Guitar Tablature
Tabbed By Tomas Guitar


   Intro
   
   e||----------------|
   B||----------------|
   G||----------------|
   D||----x-x-x-x-x-x-|
   A||----x-x-x-x-x-x-|
   E||-0--x-x-x-x-x-x-| 3x
   
   e||----------------|
   B||----------------|
   G||----------------|
   D||----x-x-x-x-x-x-|
   A||----x-x-x-x-x-x-|
   E||-0--x-x-x-3-x-3-|
   
   e||----------------|
   B||----------------|
   G||----------------|
   D||----x-x-x-x-x-x-|
   A||----x-x-x-x-x-x-|
   E||-0--x-x-x-x-x-x-| 3x
   
   Em C
   
   Verse/Chorus/Whole Song
   
   Em C Em D C Am
   Em C
   
   Em                               C E                      D C                         
   We've only reached the third day     of a seven day binge
   C             Am            Em                         C  Em
   I can already see your name disintegrated from my lips
   Em                               C E                      D C   
   We've only reached the third day     of a seven day binge
   C             Am            Em                         C  Em
   I can already see your name disintegrated from my lips
   
   C Em D C Am
   Em C
   
   Em                                     C E                    D C                         
   I can't decide if you're wearing me out    or wearing me well
   C       Am            Em                                   C  Em
   I just feel like I'm condemned to wear someone else's hell
   Em                               C E                      D C  
   We've only reached the third day     of a seven day binge
   C             Am            Em                         C  Em
   I can always see your name and disintegrated from my lips
   
   C Em D C Am
   Em C
   
   Verse Lead
   e||-------------------------------------------|
   B||-12--12--12--12---12--12--12--12---12--12--|
   G||-14b-14b-14b-14b--14b-14b-14b-14b--14b-14b-|
   D||-------------------------------------------|
   A||-------------------------------------------|
   E||-------------------------------------------| 2x
   
   e||---------------------------------|
   B||-5--5--5--5---5--5--5--5---5--5--|
   G||-7b-7b-7b-7b--7b-7b-7b-7b--7b-7b-|
   D||---------------------------------|
   A||---------------------------------|
   E||---------------------------------|
   
   e||-------------------------------------------|
   B||-12--12--12--12---12--12--12--12---12--12--|
   G||-14b-14b-14b-14b--14b-14b-14b-14b--14b-14b-|
   D||-------------------------------------------|
   A||-------------------------------------------|
   E||-------------------------------------------|
   
   Solo
   e||-0-0-0-0-0-0-0--0--0--0--0--0--0--0--0--0--0--0--0--0--0--0-0--0--0-|
   B||-5-5-5-5-5-5-5--12-12-12-12-12-12-12-12-12-10-10-10/8-8-8-7-5--5--5-|
   G||--------------------------------------------------------------------|
   D||--------------------------------------------------------------------|
   A||--------------------------------------------------------------------|
   E||--------------------------------------------------------------------|
   
   
   e||-0-0-0-0--0-0-0-0-------|
   B||-3-5-5-3--3-3-3-0-------|
   G||------------------3-0---|
   D||----------------------2-|
   A||------------------------|
   E||------------------------|
   
   e||-0-0-0----------------0---|
   B||-3-3-0------------3-------|
   G||-------3-0--0-2/4---4---4-|
   D||-----------2--------------|
   A||--------------------------|
   E||--------------------------|
   
   e||----0-----0-----0---0---0----|
   B||-----------------------------|
   G||-/9---9-7----/9---9---7---4--|
   D||-----------------------------|
   A||-----------------------------|
   E||-----------------------------|