Tablature:Astonishing Panorama of the Endtimes

From MansonWiki, the Marilyn Manson encyclopedia
Jump to: navigation, search

Guitar[edit]

Guitar tablature for Astonishing Panorama of the Endtimes
Tuning Drop D
Tabbed by unknown


   pm - palm mute
   pb - pre-bend
   r  - release
   
   Intro+Main Riff:
   
   G|-----------------------------|
   D|---------------------5-7-8-2-|
   A|---------------------5-7-8-2-|
   D|-2-2-2-2-2-2-2-2-2-2-5-7-8-2-|
   pm . . . . . . . . . .
   
   Chorus:
   G|---------------------------------------------------|
   D|-2-2-2-8-7--2-2-2-2-8-7-5--2-2-2-8-7--2-2-2-2-5-7-8|
   A|-2-2-2-8-7--2-2-2-2-8-7-5--2-2-2-8-7--2-2-2-2-5-7-8|
   D|-2-2-2-8-7--2-2-2-2-8-7-5--2-2-2-8-7--2-2-2-2-5-7-8|
   
   Post-Chorus:
   G|------------|
   D|-0-0-0--1-2-|
   A|-0-0-0--1-2-|
   D|-0-0-0--1-2-|
   
   Interlude:
   G|----------|
   D|-0-0--2-2-|
   A|-0-0--2-2-|
   D|-0-0--2-2-|
   
   Breakdown: "this is what you fear..."
   G|-----------------------------------|
   D|-5-4-3-2-5-4-3-2-5-4-3-2-4-2-2-2-2-|
   A|-5-4-3-2-5-4-3-2-5-4-3-2-4-2-2-2-2-|
   D|-5-4-3-2-5-4-3-2-5-4-3-2-4-2-2-2-2-|
   pm . . . . . . . . . . . . . . . . .
   
   Bend:
   G|---------|
   D|-pb7r----|
   A|---------|
   D|---------|
   
   Outro:
   G|--------------------------------------------------
   D|-2-2-2-8-7-2-2-2-2-8-7-5-2-2-2-8-7-2-2-2-2-5-7-8--
   A|-2-2-2-8-7-2-2-2-2-8-7-5-2-2-2-8-7-2-2-2-2-5-7-8--
   D|-2-2-2-8-7-2-2-2-2-8-7-5-2-2-2-8-7-2-2-2-2-5-7-8--
   ----------------------------------------------------|
   --2-2-2-8-7-2-2-2-2-8-7-5-2-2-2-8-7-2-2-2-2-5-7-8-2-|
   --2-2-2-8-7-2-2-2-2-8-7-5-2-2-2-8-7-2-2-2-2-5-7-8-2-|
   --2-2-2-8-8-2-2-2-2-8-7-5-2-2-2-8-7-2-2-2-2-5-7-8-2-|
   
   Order:
   
   Intro--------------7x then play the pm'ed 2's only
   Chorus-------------1x
   Main Riff----------4x
   Chorus-------------2x
   Post-Chorus--------4x
   Main Riff----------2x then pm'ed 2's 8x
   Interlude----------1x
   Main Riff----------3x then the 2's only
   Chorus-------------2x
   Post-Chorus--------4x
   Main Riff----------3x then the 2's only
   Breakdown----------5x
   Bend---------------1x
   Main Riff----------8x
   Outro
   
   Listen to the album to get the timing, if you play it right, and fast enough...it'll sound badass.