Tablature:Angel with the Scabbed Wings

From MansonWiki, the Marilyn Manson encyclopedia
Jump to: navigation, search

Guitar[edit]

Guitar Tablature
Tuning Drop D
Tabbed By unknown


   This is only the rhythm.
   
   INTRO: Repeat
   e|----------|-----------------------------|
   b|----------|-----------------------------|
   g|----------|-----------------------------|
   d|--2--3--4-|-2--1--2--3--4---------------|
   a|--2--3--4-|-2--1--2--3--4---------------|
   d|--2--3--4-|-2--1--2--3--4---------------|
   
   RIFF 1: Repeat
   e|--------------------|     |----------------------|
   b|--------------------|     |----------------------|
   g|--------------------|     |----------------------|
   d|--2-1-x-xx-8-xx-xxx-| 3x  |2-1-x-xx-8-x-7-77-----|
   a|--2-1-x-xx-7-xx-xxx-|     |2-1-x-xx-7-x-7-77-----|
   d|--2-1-x-xx-8-xx-xxx-|     |2-1-x-xx-8-x-7-77-----|
   
   RIFF 2: (Clean) Repeat
   e|----------------------------------|
   b|----------------------------------|
   g|----------------------------------|
   d|-------1-------------1------------|
   a|-------0-------------0------------|
   d|-2-1xx-1-xxxxx-2-1xx-1-xxxxx------|
    (He is the angel with the scabbed wings...)
   
   RIFF 3:
   e|------------------------------------|
   b|------------------------------------|
   g|------------------------------------|
   d|--2-1--11111111--2-1--11111111------|(Dead is what he is...)
   a|--2-1--11111111--2-1--11111111------|
   d|--2-1--11111111--2-1--11111111------|
         p.m........       ........ 
    
   RIFF 4: Repeat
   e|-----------------------------|
   b|-----------------------------|
   g|-----------------------------|
   d|--6--9--13--111-111-1--4-----|(He is the maker...)
   a|--6--9--13--111-111-1--5-----|
   d|--6--9--13--111-111-1--4-----|
              p.m... ... .
   
   RIFF 5: Repeat
   e|-----------------------------------|
   b|-----------------------------------|
   g|--3-2---------3-2--9-10-11---------|
   d|--3-2--2-3-4--3-2--9-10-11---------|
   a|--1-0--2-3-4--1-0--7-8--9----------|
   d|-------2-3-4-----------------------|
    (get back!...)
   
   Song structure:
   
   INTRO
   RIFF 1
   RIFF 2
   RIFF 3
   RIFF 4
   INTRO
   RIFF 4
   RIFF 5
   RIFF 2
   RIFF 1

Bass[edit]

Bass Tablature
Tuning Drop D
Tabbed By unknown


   Start at 0:07
   G|-----------------------|
   D|-----------------------|
   A|-----------------------|
   D|--12/1-0-xx-xx-xxx-x---|
   
   G|--------------------|
   D|--------------------|
   A|--------------------|
   D|--1-0-xx-xx-xxx-x---|
   
   Chorus-
   "He is the maker..."
   G|---------------------------------|
   D|---------------------------------|
   A|-------------------------565-----|
   D|--5-55--8-86-00-00--000-0----0---|x3
   
   "he is the raper"
   G|-------------------------------|
   D|-------------------------------|
   A|-------------------------------|
   D|--5-55--8-86-00-00--0-00--12/--|
   
   G|-----------------------|
   D|-----------------------|
   A|-----------------------|
   D|--1-0--011-1222-3------| x3
   
   G|------------------------------------|
   D|------------------------------------|
   A|------------------------------------|
   D|--1-0--011-1222-3--1-0--pause--12/--|
   
   G|-----------------------|
   D|-----------------------|
   A|-----------------------|
   D|--1-0--011-1222-3------|x8
   
   "He is the maker..."
   G|---------------------------------|
   D|---------------------------------|
   A|--------------------------565----|
   D|--5-55--8-86-00-00--000--0---0---| x3
   
   "He is the raper"
   G|-------------------------------|
   D|-------------------------------|
   A|-------------------------------|
   D|--5-55--8-86-00-00--0-00--12/--|
   
   Bridge-
   "Get Back.."
   G|----------------------------------------|
   D|----------------------------------------|
   A|----------------------------------------|
   D|--0-0-8-8-7-7-6/12/-1-1-1-2-2-2-3-3-3---|x3
   
   G|---------------------------------------------|
   D|---------------------------------------------|
   A|---------------------------------------------|
   D|--0-0-8-8-7-7-6/12-12-12-13-13-13-14-14-14---|
              (twelve, thirteen, fouteen; NOT one, two..)
   
   "I am the angel with the scabbed wings..."
   G|-----------------|
   D|-----------------|
   A|--------0--------|
   D|--1-0-xx1-xx-xx--|
   
   Outro-
   "Rock & roll sores"
   G|---------------------------|
   D|---------------------------|
   A|---------------------------|
   D|--1-0--12-1212-1313-10-1010|
          (twelve, thirteen, ten; NOT one, two..)
   
   G|-----|
   D|-----|
   A|-----|
   D|-1-0-|

Keyboard[edit]

Version 1[edit]

Keyboard Tablature
Tabbed By unknown


   I ONLY ever tab for Pogo's keyboard parts. This tab can be used for the album version of the song, or the live version of the song on the
   Dead To The World Tour Video, where Pogo plays much more on this song.
   
   Effect: Pop Lead
   
   [After Guitar Intro Riffs] C#----D#----                         
                              C#----D#----
                              C#----D#----            [LOW]
   
   (He Is The Taker, Yeah!)   E----D--D#--E D# D----  [MID] *Keyboard in Video*
   
   2nd (Sketch A Little Key)  C#----D#----
                              C#----D#----            [LOW]
   
   (Get Back)                 E--D#--F# F# F# F#, G# F
                              E--D#--F# F# F# F#, G# F
                              E--D#--F# F# F# F#, G# F
                              E--D#--F# F# F# F#, G# F-----[HIGH]
   
   6th(Rock and Roll Sores)   D, D#, F
                              D, D#, F
                              D, D#, F
                              D, D#, F                 [MID]
   
   *OR INSTEAD OF 6th(Rock and Roll Sores) YOU COULD DO THE LIVE VIDEO VERSION BELOW THAT POGO PLAYS ON DEAD TO THE WORLD*
   
   3rd (Rock and Roll Sores) E--E D#--F# F# F E
                             E D# D# D
                             D C# E F
                             F#---F# F E
                             E D#, D#, D#, D#, D# [CROWD CHEERS]

Version 2[edit]

Keyboard Tablature
Tabbed By Mandolyn (Nick)


         'He is the raper" 1st time
         Eb C# Bb C# <2 times> Eb C#
         "he is the raper" 2nd time
         Eb C# Bb C# Eb

Drums[edit]

Drums Tablature
Tabbed By Holy Wood


   ------------------------------>
   B1= Bass Drum 1
   B2= Bass Drum 2
   SD= Snare Drum
   T1= Tom 1
   T2= Tom 2
   FT= Floor Tom
   TF= Tamberine with Foot
   HH= High Hat
   CC= Crash Cymbal
   CI= Chine Cymbal
   --------------------------->
   Note: I havent put in any fills.
   
   SD|----o-------oo--|
   T1|-------o-o----oo|
   T2|o-o---o-o-------|
   FT|----------o-----|
      1 + 2 + 3 + 4 +
   
   repeat as neccesary
   and then play
   
   TF|--x---x---x---x-|
   T2|o-o---o-o-------|
   SD|----oo-----ooooo|
   B1|o-------o-------|
      1 + 2 + 3 + 4 +
   
   repeat as neccesary
   and then play
   
   TF|--x---x---x---x-|
   SD|----o-------oo--|
   T1|-------o-o----oo|
   T2|o-o---o-o-------|
   FT|----------o-----|
   B1|o-------o-------|
      1 + 2 + 3 + 4 +
   
   repeat as neccesary
   and then play
   
   CC|X---------------|X---------------|
   HH|----X---X---X---|----X---X---X---|
   SD|--------o-------|----o-------o-o-|
   B1|o---o-----o-o-o-|o-o---oo-oo--o--|
      1 + 2 + 3 + 4 +  1 + 2 + 3 + 4 +
   
   Repeat as neccesary
   and then play
   
   TF|--x---x---x---x-|
   SD|----o-------oo--|
   T1|-------o-o----oo|
   T2|o-o---o-o-------|
   FT|----------o-----|
   B1|o-------o-------|
      1 + 2 + 3 + 4 +
   
   repeat as neccesary
   and then play
   
   CC|X---------------|X---------------|
   HH|----X---X---X---|----X---X---X---|
   SD|--------o-------|----o-------o-o-|
   B1|o---o-----o-o-o-|o-o---oo-oo--o--|
      1 + 2 + 3 + 4 +  1 + 2 + 3 + 4 +
   
   repeat as neccesary
   and then play
   
   CI|X---------------|
   HH|--X-X-X-X-X-X-X-|
   SD|o---o---o---o---|
   B1|o-o-o-o-o-o-o-o-|
   B2|-o-o-o-o-o-o-o-o|
      1 + 2 + 3 + 4 +
   
   repeat as neccesary
   and then play
   
   TF|--x---x---x---x-|
   T2|o-o---o-o-------|
   SD|----oo-----ooooo|
   B1|o-------o-------|
      1 + 2 + 3 + 4 +
   	
   -----------------------------------+